ISO-10303-21;
HEADER;
FILE_DESCRIPTION (( 'STEP AP214' ),
    '1' );
FILE_NAME ('GCC-411104.STEP',
    '2020-02-15T10:10:48',
    ( 'China' ),
    ( 'Microsoft' ),
    'SwSTEP 2.0',
    'SolidWorks 2018',
    '' );
FILE_SCHEMA (( 'AUTOMOTIVE_DESIGN' ));
ENDSEC;

DATA;
#1 = CARTESIAN_POINT ( 'NONE',  ( -12.40000000000000036, 1.536931732929928200E-15, 0.0000000000000000000 ) ) ;
#2 =( GEOMETRIC_REPRESENTATION_CONTEXT ( 3 ) GLOBAL_UNCERTAINTY_ASSIGNED_CONTEXT ( ( #144 ) ) GLOBAL_UNIT_ASSIGNED_CONTEXT ( ( #76, #114, #64 ) ) REPRESENTATION_CONTEXT ( 'NONE', 'WORKASPACE' ) );
#3 = CARTESIAN_POINT ( 'NONE',  ( 0.0000000000000000000, 0.0000000000000000000, 2.699999999999994849 ) ) ;
#4 = CARTESIAN_POINT ( 'NONE',  ( -12.69999999999999929, 0.0000000000000000000, 2.699999999999994849 ) ) ;
#5 = ADVANCED_FACE ( 'NONE', ( #24 ), #59, .T. ) ;
#6 = EDGE_CURVE ( 'NONE', #240, #187, #185, .T. ) ;
#7 = CIRCLE ( 'NONE', #230, 12.40000000000000036 ) ;
#8 = ORIENTED_EDGE ( 'NONE', *, *, #202, .T. ) ;
#9 = CARTESIAN_POINT ( 'NONE',  ( 0.0000000000000000000, 0.0000000000000000000, 0.0000000000000000000 ) ) ;
#10 = EDGE_CURVE ( 'NONE', #109, #228, #51, .T. ) ;
#11 = CARTESIAN_POINT ( 'NONE',  ( 0.0000000000000000000, 0.0000000000000000000, 2.699999999999994849 ) ) ;
#12 = UNCERTAINTY_MEASURE_WITH_UNIT (LENGTH_MEASURE( 1.000000000000000082E-05 ), #49, 'distance_accuracy_value', 'NONE');
#13 = CARTESIAN_POINT ( 'NONE',  ( 0.0000000000000000000, 0.0000000000000000000, 0.0000000000000000000 ) ) ;
#14 = SHAPE_DEFINITION_REPRESENTATION ( #151, #15 ) ;
#15 = ADVANCED_BREP_SHAPE_REPRESENTATION ( 'GCC-411104', ( #88, #108 ), #172 ) ;
#16 = VECTOR ( 'NONE', #98, 1000.000000000000000 ) ;
#17 = ORIENTED_EDGE ( 'NONE', *, *, #107, .F. ) ;
#18 = AXIS2_PLACEMENT_3D ( 'NONE', #222, #45, #173 ) ;
#19 = CARTESIAN_POINT ( 'NONE',  ( 0.0000000000000000000, 0.0000000000000000000, 3.000000000000000000 ) ) ;
#20 = CIRCLE ( 'NONE', #35, 12.69999999999999929 ) ;
#21 = COLOUR_RGB ( '',0.9411764705882352811, 0.9607843137254902244, 0.9686274509803921573 ) ;
#22 = ORIENTED_EDGE ( 'NONE', *, *, #31, .F. ) ;
#23 = DIRECTION ( 'NONE',  ( 1.000000000000000000, 0.0000000000000000000, 0.0000000000000000000 ) ) ;
#24 = FACE_OUTER_BOUND ( 'NONE', #111, .T. ) ;
#25 = ORIENTED_EDGE ( 'NONE', *, *, #184, .F. ) ;
#26 = CARTESIAN_POINT ( 'NONE',  ( 0.0000000000000000000, 0.0000000000000000000, 0.0000000000000000000 ) ) ;
#27 = DIRECTION ( 'NONE',  ( 1.000000000000000000, 0.0000000000000000000, 0.0000000000000000000 ) ) ;
#28 = FACE_OUTER_BOUND ( 'NONE', #163, .T. ) ;
#29 =( LENGTH_UNIT ( ) NAMED_UNIT ( * ) SI_UNIT ( .MILLI., .METRE. ) );
#30 = EDGE_CURVE ( 'NONE', #165, #187, #89, .T. ) ;
#31 = EDGE_CURVE ( 'NONE', #165, #61, #137, .T. ) ;
#32 = DIRECTION ( 'NONE',  ( 0.0000000000000000000, 0.0000000000000000000, 1.000000000000000000 ) ) ;
#33 = ORIENTED_EDGE ( 'NONE', *, *, #6, .F. ) ;
#34 = STYLED_ITEM ( 'NONE', ( #136 ), #15 ) ;
#35 = AXIS2_PLACEMENT_3D ( 'NONE', #11, #126, #69 ) ;
#36 = EDGE_LOOP ( 'NONE', ( #152, #60, #57, #218 ) ) ;
#37 = PRODUCT ( 'GCC-411104', 'GCC-411104', '', ( #200 ) ) ;
#38 = LINE ( 'NONE', #139, #214 ) ;
#39 = DIRECTION ( 'NONE',  ( 1.000000000000000000, 0.0000000000000000000, -0.0000000000000000000 ) ) ;
#40 = ORIENTED_EDGE ( 'NONE', *, *, #217, .T. ) ;
#41 = AXIS2_PLACEMENT_3D ( 'NONE', #210, #229, #87 ) ;
#42 = FACE_OUTER_BOUND ( 'NONE', #142, .T. ) ;
#43 = DIRECTION ( 'NONE',  ( 0.0000000000000000000, 0.0000000000000000000, 1.000000000000000000 ) ) ;
#44 = DIRECTION ( 'NONE',  ( 0.0000000000000000000, 0.0000000000000000000, -1.000000000000000000 ) ) ;
#45 = DIRECTION ( 'NONE',  ( -0.0000000000000000000, -0.0000000000000000000, 1.000000000000000000 ) ) ;
#46 = COLOUR_RGB ( '',0.9411764705882352811, 0.9607843137254902244, 0.9686274509803921573 ) ;
#47 = CONICAL_SURFACE ( 'NONE', #65, 12.39999999999999325, 0.7853981633974511656 ) ;
#48 = FILL_AREA_STYLE_COLOUR ( '', #21 ) ;
#49 =( LENGTH_UNIT ( ) NAMED_UNIT ( * ) SI_UNIT ( .MILLI., .METRE. ) );
#50 = CARTESIAN_POINT ( 'NONE',  ( 0.0000000000000000000, 0.0000000000000000000, 3.000000000000000000 ) ) ;
#51 = CIRCLE ( 'NONE', #117, 12.39999999999999325 ) ;
#52 = ORIENTED_EDGE ( 'NONE', *, *, #215, .T. ) ;
#53 = MECHANICAL_DESIGN_GEOMETRIC_PRESENTATION_REPRESENTATION (  '', ( #34 ), #125 ) ;
#54 = CIRCLE ( 'NONE', #75, 12.69999999999999929 ) ;
#55 = AXIS2_PLACEMENT_3D ( 'NONE', #81, #62, #176 ) ;
#56 = CIRCLE ( 'NONE', #71, 12.39999999999999325 ) ;
#57 = ORIENTED_EDGE ( 'NONE', *, *, #234, .T. ) ;
#58 = PRESENTATION_LAYER_ASSIGNMENT (  '', '', ( #34 ) ) ;
#59 = PLANE ( 'NONE',  #92 ) ;
#60 = ORIENTED_EDGE ( 'NONE', *, *, #30, .T. ) ;
#61 = VERTEX_POINT ( 'NONE', #4 ) ;
#62 = DIRECTION ( 'NONE',  ( 0.0000000000000000000, 0.0000000000000000000, -1.000000000000000000 ) ) ;
#63 = ADVANCED_FACE ( 'NONE', ( #131 ), #47, .T. ) ;
#64 =( NAMED_UNIT ( * ) SI_UNIT ( $, .STERADIAN. ) SOLID_ANGLE_UNIT ( ) );
#65 = AXIS2_PLACEMENT_3D ( 'NONE', #118, #77, #205 ) ;
#66 = DIRECTION ( 'NONE',  ( -0.0000000000000000000, -0.0000000000000000000, -1.000000000000000000 ) ) ;
#67 = DIRECTION ( 'NONE',  ( 1.000000000000000000, 0.0000000000000000000, -0.0000000000000000000 ) ) ;
#68 = DIRECTION ( 'NONE',  ( -0.0000000000000000000, -0.0000000000000000000, 1.000000000000000000 ) ) ;
#69 = DIRECTION ( 'NONE',  ( 1.000000000000000000, 0.0000000000000000000, 0.0000000000000000000 ) ) ;
#70 = ORIENTED_EDGE ( 'NONE', *, *, #184, .T. ) ;
#71 = AXIS2_PLACEMENT_3D ( 'NONE', #143, #82, #123 ) ;
#72 = LINE ( 'NONE', #180, #148 ) ;
#73 = EDGE_LOOP ( 'NONE', ( #40, #84 ) ) ;
#74 = ORIENTED_EDGE ( 'NONE', *, *, #107, .T. ) ;
#75 = AXIS2_PLACEMENT_3D ( 'NONE', #182, #68, #86 ) ;
#76 =( LENGTH_UNIT ( ) NAMED_UNIT ( * ) SI_UNIT ( .MILLI., .METRE. ) );
#77 = DIRECTION ( 'NONE',  ( 0.0000000000000000000, 0.0000000000000000000, -1.000000000000000000 ) ) ;
#78 = AXIS2_PLACEMENT_3D ( 'NONE', #50, #66, #127 ) ;
#79 = DIRECTION ( 'NONE',  ( 1.000000000000000000, 0.0000000000000000000, 0.0000000000000000000 ) ) ;
#80 = ADVANCED_FACE ( 'NONE', ( #120 ), #237, .T. ) ;
#81 = CARTESIAN_POINT ( 'NONE',  ( 0.0000000000000000000, 0.0000000000000000000, 3.000000000000000000 ) ) ;
#82 = DIRECTION ( 'NONE',  ( 0.0000000000000000000, 0.0000000000000000000, 1.000000000000000000 ) ) ;
#83 =( NAMED_UNIT ( * ) SI_UNIT ( $, .STERADIAN. ) SOLID_ANGLE_UNIT ( ) );
#84 = ORIENTED_EDGE ( 'NONE', *, *, #93, .T. ) ;
#85 = AXIS2_PLACEMENT_3D ( 'NONE', #135, #192, #27 ) ;
#86 = DIRECTION ( 'NONE',  ( 1.000000000000000000, 0.0000000000000000000, 0.0000000000000000000 ) ) ;
#87 = DIRECTION ( 'NONE',  ( -1.000000000000000000, 0.0000000000000000000, 0.0000000000000000000 ) ) ;
#88 = MANIFOLD_SOLID_BREP ( 'µ¹½Ç1', #167 ) ;
#89 = LINE ( 'NONE', #190, #110 ) ;
#90 = FACE_OUTER_BOUND ( 'NONE', #133, .T. ) ;
#91 = EDGE_LOOP ( 'NONE', ( #171, #213, #147, #25 ) ) ;
#92 = AXIS2_PLACEMENT_3D ( 'NONE', #19, #150, #39 ) ;
#93 = EDGE_CURVE ( 'NONE', #97, #203, #7, .T. ) ;
#94 = ORIENTED_EDGE ( 'NONE', *, *, #215, .F. ) ;
#95 = ADVANCED_FACE ( 'NONE', ( #90 ), #219, .T. ) ;
#96 = AXIS2_PLACEMENT_3D ( 'NONE', #155, #134, #224 ) ;
#97 = VERTEX_POINT ( 'NONE', #1 ) ;
#98 = DIRECTION ( 'NONE',  ( -0.7071067811865495711, 8.659560562354957510E-17, 0.7071067811865454633 ) ) ;
#99 = EDGE_LOOP ( 'NONE', ( #94, #220, #74, #33 ) ) ;
#100 = CARTESIAN_POINT ( 'NONE',  ( 12.40000000000000036, 0.0000000000000000000, 0.0000000000000000000 ) ) ;
#101 = SURFACE_SIDE_STYLE ('',( #233 ) ) ;
#102 = DIRECTION ( 'NONE',  ( -0.0000000000000000000, -0.0000000000000000000, -1.000000000000000000 ) ) ;
#103 = CYLINDRICAL_SURFACE ( 'NONE', #41, 12.69999999999999929 ) ;
#104 = DIRECTION ( 'NONE',  ( 1.000000000000000000, 0.0000000000000000000, 0.0000000000000000000 ) ) ;
#105 = AXIS2_PLACEMENT_3D ( 'NONE', #13, #32, #67 ) ;
#106 = DIRECTION ( 'NONE',  ( 0.0000000000000000000, 0.0000000000000000000, 1.000000000000000000 ) ) ;
#107 = EDGE_CURVE ( 'NONE', #203, #187, #186, .T. ) ;
#108 = AXIS2_PLACEMENT_3D ( 'NONE', #141, #106, #104 ) ;
#109 = VERTEX_POINT ( 'NONE', #206 ) ;
#110 = VECTOR ( 'NONE', #116, 1000.000000000000000 ) ;
#111 = EDGE_LOOP ( 'NONE', ( #204, #223 ) ) ;
#112 = MECHANICAL_DESIGN_GEOMETRIC_PRESENTATION_REPRESENTATION (  '', ( #211 ), #2 ) ;
#113 = DIRECTION ( 'NONE',  ( 1.000000000000000000, 0.0000000000000000000, 0.0000000000000000000 ) ) ;
#114 =( NAMED_UNIT ( * ) PLANE_ANGLE_UNIT ( ) SI_UNIT ( $, .RADIAN. ) );
#115 = ADVANCED_FACE ( 'NONE', ( #42 ), #156, .T. ) ;
#116 = DIRECTION ( 'NONE',  ( -0.0000000000000000000, -0.0000000000000000000, -1.000000000000000000 ) ) ;
#117 = AXIS2_PLACEMENT_3D ( 'NONE', #153, #43, #113 ) ;
#118 = CARTESIAN_POINT ( 'NONE',  ( 0.0000000000000000000, 0.0000000000000000000, 3.000000000000000000 ) ) ;
#119 = FACE_OUTER_BOUND ( 'NONE', #73, .T. ) ;
#120 = FACE_OUTER_BOUND ( 'NONE', #99, .T. ) ;
#121 =( NAMED_UNIT ( * ) SI_UNIT ( $, .STERADIAN. ) SOLID_ANGLE_UNIT ( ) );
#122 = EDGE_CURVE ( 'NONE', #228, #109, #56, .T. ) ;
#123 = DIRECTION ( 'NONE',  ( 1.000000000000000000, 0.0000000000000000000, 0.0000000000000000000 ) ) ;
#124 = CARTESIAN_POINT ( 'NONE',  ( 12.39999999999999325, 1.536931732929927411E-15, 3.000000000000000000 ) ) ;
#125 =( GEOMETRIC_REPRESENTATION_CONTEXT ( 3 ) GLOBAL_UNCERTAINTY_ASSIGNED_CONTEXT ( ( #129 ) ) GLOBAL_UNIT_ASSIGNED_CONTEXT ( ( #29, #226, #121 ) ) REPRESENTATION_CONTEXT ( 'NONE', 'WORKASPACE' ) );
#126 = DIRECTION ( 'NONE',  ( 0.0000000000000000000, 0.0000000000000000000, -1.000000000000000000 ) ) ;
#127 = DIRECTION ( 'NONE',  ( -1.000000000000000000, 0.0000000000000000000, 0.0000000000000000000 ) ) ;
#128 = APPLICATION_PROTOCOL_DEFINITION ( 'draft international standard', 'automotive_design', 1998, #232 ) ;
#129 = UNCERTAINTY_MEASURE_WITH_UNIT (LENGTH_MEASURE( 1.000000000000000082E-05 ), #29, 'distance_accuracy_value', 'NONE');
#130 = AXIS2_PLACEMENT_3D ( 'NONE', #3, #44, #23 ) ;
#131 = FACE_OUTER_BOUND ( 'NONE', #91, .T. ) ;
#132 = VECTOR ( 'NONE', #207, 1000.000000000000000 ) ;
#133 = EDGE_LOOP ( 'NONE', ( #193, #189, #70, #22 ) ) ;
#134 = DIRECTION ( 'NONE',  ( -0.0000000000000000000, -0.0000000000000000000, 1.000000000000000000 ) ) ;
#135 = CARTESIAN_POINT ( 'NONE',  ( 0.0000000000000000000, 0.0000000000000000000, 0.2999999999999981570 ) ) ;
#136 = PRESENTATION_STYLE_ASSIGNMENT (( #146 ) ) ;
#137 = CIRCLE ( 'NONE', #130, 12.69999999999999929 ) ;
#138 = APPLICATION_PROTOCOL_DEFINITION ( 'draft international standard', 'automotive_design', 1998, #197 ) ;
#139 = CARTESIAN_POINT ( 'NONE',  ( -12.69999999999999929, 0.0000000000000000000, 3.000000000000000000 ) ) ;
#140 = PRODUCT_DEFINITION_FORMATION_WITH_SPECIFIED_SOURCE ( 'ÈÎºÎ', '', #37, .NOT_KNOWN. ) ;
#141 = CARTESIAN_POINT ( 'NONE',  ( 0.0000000000000000000, 0.0000000000000000000, 0.0000000000000000000 ) ) ;
#142 = EDGE_LOOP ( 'NONE', ( #169, #52, #199, #17 ) ) ;
#143 = CARTESIAN_POINT ( 'NONE',  ( 0.0000000000000000000, 0.0000000000000000000, 3.000000000000000000 ) ) ;
#144 = UNCERTAINTY_MEASURE_WITH_UNIT (LENGTH_MEASURE( 1.000000000000000082E-05 ), #76, 'distance_accuracy_value', 'NONE');
#145 = EDGE_CURVE ( 'NONE', #61, #165, #20, .T. ) ;
#146 = SURFACE_STYLE_USAGE ( .BOTH. , #101 ) ;
#147 = ORIENTED_EDGE ( 'NONE', *, *, #145, .F. ) ;
#148 = VECTOR ( 'NONE', #198, 1000.000000000000000 ) ;
#149 = EDGE_CURVE ( 'NONE', #228, #165, #162, .T. ) ;
#150 = DIRECTION ( 'NONE',  ( 0.0000000000000000000, 0.0000000000000000000, 1.000000000000000000 ) ) ;
#151 = PRODUCT_DEFINITION_SHAPE ( 'NONE', 'NONE',  #225 ) ;
#152 = ORIENTED_EDGE ( 'NONE', *, *, #145, .T. ) ;
#153 = CARTESIAN_POINT ( 'NONE',  ( 0.0000000000000000000, 0.0000000000000000000, 3.000000000000000000 ) ) ;
#154 = CARTESIAN_POINT ( 'NONE',  ( 12.39999999999999325, 1.518562030942716784E-15, 3.000000000000000000 ) ) ;
#155 = CARTESIAN_POINT ( 'NONE',  ( 0.0000000000000000000, 0.0000000000000000000, 0.2999999999999981570 ) ) ;
#156 = CONICAL_SURFACE ( 'NONE', #85, 12.69999999999999929, 0.7853981633974511656 ) ;
#157 = DIRECTION ( 'NONE',  ( 0.7071067811865495711, 8.659560562354956277E-17, -0.7071067811865454633 ) ) ;
#158 = PRESENTATION_LAYER_ASSIGNMENT (  '', '', ( #211 ) ) ;
#159 = CARTESIAN_POINT ( 'NONE',  ( 12.69999999999999929, 1.555301434917138433E-15, 2.699999999999994849 ) ) ;
#160 = CARTESIAN_POINT ( 'NONE',  ( -12.69999999999999929, 0.0000000000000000000, 0.2999999999999981570 ) ) ;
#161 =( NAMED_UNIT ( * ) PLANE_ANGLE_UNIT ( ) SI_UNIT ( $, .RADIAN. ) );
#162 = LINE ( 'NONE', #154, #188 ) ;
#163 = EDGE_LOOP ( 'NONE', ( #201, #183, #8, #216 ) ) ;
#164 = CYLINDRICAL_SURFACE ( 'NONE', #78, 12.69999999999999929 ) ;
#165 = VERTEX_POINT ( 'NONE', #159 ) ;
#166 = SURFACE_STYLE_FILL_AREA ( #191 ) ;
#167 = CLOSED_SHELL ( 'NONE', ( #63, #115, #208, #179, #5, #194, #80, #95 ) ) ;
#168 = AXIS2_PLACEMENT_3D ( 'NONE', #9, #102, #227 ) ;
#169 = ORIENTED_EDGE ( 'NONE', *, *, #93, .F. ) ;
#170 = SURFACE_STYLE_USAGE ( .BOTH. , #177 ) ;
#171 = ORIENTED_EDGE ( 'NONE', *, *, #122, .F. ) ;
#172 =( GEOMETRIC_REPRESENTATION_CONTEXT ( 3 ) GLOBAL_UNCERTAINTY_ASSIGNED_CONTEXT ( ( #12 ) ) GLOBAL_UNIT_ASSIGNED_CONTEXT ( ( #49, #161, #83 ) ) REPRESENTATION_CONTEXT ( 'NONE', 'WORKASPACE' ) );
#173 = DIRECTION ( 'NONE',  ( 1.000000000000000000, 0.0000000000000000000, 0.0000000000000000000 ) ) ;
#174 = DIRECTION ( 'NONE',  ( -0.0000000000000000000, -0.0000000000000000000, -1.000000000000000000 ) ) ;
#175 = PRODUCT_DEFINITION_CONTEXT ( 'detailed design', #232, 'design' ) ;
#176 = DIRECTION ( 'NONE',  ( -1.000000000000000000, 0.0000000000000000000, 0.0000000000000000000 ) ) ;
#177 = SURFACE_SIDE_STYLE ('',( #166 ) ) ;
#178 = CARTESIAN_POINT ( 'NONE',  ( -12.69999999999999929, 1.555301434917138433E-15, 0.2999999999999981570 ) ) ;
#179 = ADVANCED_FACE ( 'NONE', ( #28 ), #164, .T. ) ;
#180 = CARTESIAN_POINT ( 'NONE',  ( -12.39999999999999325, 0.0000000000000000000, 3.000000000000000000 ) ) ;
#181 = FILL_AREA_STYLE ('',( #231 ) ) ;
#182 = CARTESIAN_POINT ( 'NONE',  ( 0.0000000000000000000, 0.0000000000000000000, 0.2999999999999981570 ) ) ;
#183 = ORIENTED_EDGE ( 'NONE', *, *, #31, .T. ) ;
#184 = EDGE_CURVE ( 'NONE', #109, #61, #72, .T. ) ;
#185 = CIRCLE ( 'NONE', #18, 12.69999999999999929 ) ;
#186 = LINE ( 'NONE', #221, #132 ) ;
#187 = VERTEX_POINT ( 'NONE', #196 ) ;
#188 = VECTOR ( 'NONE', #157, 1000.000000000000000 ) ;
#189 = ORIENTED_EDGE ( 'NONE', *, *, #10, .F. ) ;
#190 = CARTESIAN_POINT ( 'NONE',  ( 12.69999999999999929, 1.555301434917138433E-15, 3.000000000000000000 ) ) ;
#191 = FILL_AREA_STYLE ('',( #48 ) ) ;
#192 = DIRECTION ( 'NONE',  ( -0.0000000000000000000, -0.0000000000000000000, 1.000000000000000000 ) ) ;
#193 = ORIENTED_EDGE ( 'NONE', *, *, #149, .F. ) ;
#194 = ADVANCED_FACE ( 'NONE', ( #119 ), #212, .F. ) ;
#195 = DIRECTION ( 'NONE',  ( -0.0000000000000000000, -0.0000000000000000000, -1.000000000000000000 ) ) ;
#196 = CARTESIAN_POINT ( 'NONE',  ( 12.69999999999999929, 1.555301434917138433E-15, 0.2999999999999981570 ) ) ;
#197 = APPLICATION_CONTEXT ( 'automotive_design' ) ;
#198 = DIRECTION ( 'NONE',  ( -0.7071067811865495711, 0.0000000000000000000, -0.7071067811865454633 ) ) ;
#199 = ORIENTED_EDGE ( 'NONE', *, *, #234, .F. ) ;
#200 = PRODUCT_CONTEXT ( 'NONE', #197, 'mechanical' ) ;
#201 = ORIENTED_EDGE ( 'NONE', *, *, #30, .F. ) ;
#202 = EDGE_CURVE ( 'NONE', #61, #240, #38, .T. ) ;
#203 = VERTEX_POINT ( 'NONE', #100 ) ;
#204 = ORIENTED_EDGE ( 'NONE', *, *, #10, .T. ) ;
#205 = DIRECTION ( 'NONE',  ( -1.000000000000000000, 0.0000000000000000000, 0.0000000000000000000 ) ) ;
#206 = CARTESIAN_POINT ( 'NONE',  ( -12.39999999999999325, 0.0000000000000000000, 3.000000000000000000 ) ) ;
#207 = DIRECTION ( 'NONE',  ( 0.7071067811865495711, 0.0000000000000000000, 0.7071067811865454633 ) ) ;
#208 = ADVANCED_FACE ( 'NONE', ( #236 ), #103, .T. ) ;
#209 = LINE ( 'NONE', #178, #16 ) ;
#210 = CARTESIAN_POINT ( 'NONE',  ( 0.0000000000000000000, 0.0000000000000000000, 3.000000000000000000 ) ) ;
#211 = STYLED_ITEM ( 'NONE', ( #235 ), #88 ) ;
#212 = PLANE ( 'NONE',  #105 ) ;
#213 = ORIENTED_EDGE ( 'NONE', *, *, #149, .T. ) ;
#214 = VECTOR ( 'NONE', #195, 1000.000000000000000 ) ;
#215 = EDGE_CURVE ( 'NONE', #97, #240, #209, .T. ) ;
#216 = ORIENTED_EDGE ( 'NONE', *, *, #6, .T. ) ;
#217 = EDGE_CURVE ( 'NONE', #203, #97, #239, .T. ) ;
#218 = ORIENTED_EDGE ( 'NONE', *, *, #202, .F. ) ;
#219 = CONICAL_SURFACE ( 'NONE', #55, 12.39999999999999325, 0.7853981633974511656 ) ;
#220 = ORIENTED_EDGE ( 'NONE', *, *, #217, .F. ) ;
#221 = CARTESIAN_POINT ( 'NONE',  ( 12.69999999999999929, 0.0000000000000000000, 0.2999999999999981570 ) ) ;
#222 = CARTESIAN_POINT ( 'NONE',  ( 0.0000000000000000000, 0.0000000000000000000, 0.2999999999999981570 ) ) ;
#223 = ORIENTED_EDGE ( 'NONE', *, *, #122, .T. ) ;
#224 = DIRECTION ( 'NONE',  ( 1.000000000000000000, 0.0000000000000000000, 0.0000000000000000000 ) ) ;
#225 = PRODUCT_DEFINITION ( 'Î´Öª', '', #140, #175 ) ;
#226 =( NAMED_UNIT ( * ) PLANE_ANGLE_UNIT ( ) SI_UNIT ( $, .RADIAN. ) );
#227 = DIRECTION ( 'NONE',  ( 1.000000000000000000, 0.0000000000000000000, 0.0000000000000000000 ) ) ;
#228 = VERTEX_POINT ( 'NONE', #124 ) ;
#229 = DIRECTION ( 'NONE',  ( -0.0000000000000000000, -0.0000000000000000000, -1.000000000000000000 ) ) ;
#230 = AXIS2_PLACEMENT_3D ( 'NONE', #26, #174, #79 ) ;
#231 = FILL_AREA_STYLE_COLOUR ( '', #46 ) ;
#232 = APPLICATION_CONTEXT ( 'automotive_design' ) ;
#233 = SURFACE_STYLE_FILL_AREA ( #181 ) ;
#234 = EDGE_CURVE ( 'NONE', #187, #240, #54, .T. ) ;
#235 = PRESENTATION_STYLE_ASSIGNMENT (( #170 ) ) ;
#236 = FACE_OUTER_BOUND ( 'NONE', #36, .T. ) ;
#237 = CONICAL_SURFACE ( 'NONE', #96, 12.69999999999999929, 0.7853981633974511656 ) ;
#238 = PRODUCT_RELATED_PRODUCT_CATEGORY ( 'part', '', ( #37 ) ) ;
#239 = CIRCLE ( 'NONE', #168, 12.40000000000000036 ) ;
#240 = VERTEX_POINT ( 'NONE', #160 ) ;
ENDSEC;
END-ISO-10303-21;
